Tênis Casual Masculino Preto Branco OT

Tênis Casual Masculino Preto Branco OT

Marca: ONITYModelo:CASUAL Referência: L10


Não disponível

Enviar
Avise-me quando estiver disponível

- DICA

Um pé no esporte, outro no urbano. O Tênis Onity deixa suas produções super estilosas e confortáveis.

- DESCRIÇÃO
Gênero: Masculino e feminino
Indicado para: Dia a Dia
Estilo da Peça: Com logo
Material: Sintético
Altura do Cano: Cano Baixo
Fechamento: Cadarço
Solado: Borracha

-Informações Adicionais:
-Tamanhos: 34 ao 43
-Solado: antiderrapante
-Palmilha: macia
-Marca: Onity
-Pronta entrega postagem imediata.
-Produto novo e na caixa.

-TAMANHO DA PALMILHA
-34----------23,5 cm
-35----------23,8 cm
-36----------24,8 cm
-37----------25,2 cm
-38----------25,9 cm
-39----------26,3 cm
-40----------27,2 cm
-41----------27,5 cm
-42----------28,6 cm
-43----------29,0 cm

- DICA

Um pé no esporte, outro no urbano. O Tênis Onity deixa suas produções super estilosas e confortáveis.

- DESCRIÇÃO
Gênero: Masculino e feminino
Indicado para: Dia a Dia
Estilo da Peça: Com logo
Material: Sintético
Altura do Cano: Cano Baixo
Fechamento: Cadarço
Solado: Borracha

-Informações Adicionais:
-Tamanhos: 34 ao 43
-Solado: antiderrapante
-Palmilha: macia
-Marca: Onity
-Foto realizada com tamanho: 39
-Pronta entrega postagem imediata.
-Produto novo e na caixa.

-TAMANHO DA PALMILHA
-34----------23,5 cm
-35----------23,8 cm
-36----------24,8 cm
-37----------25,2 cm
-38----------25,9 cm
-39----------26,3 cm
-40----------27,2 cm
-41----------27,5 cm
-42----------28,6 cm
-43----------29,0 cm

Deixe seu comentário e sua avaliação







- Máximo de 512 caracteres.

Clique para Avaliar


  • Avaliação:
Enviar
Faça seu login e comente.

Características


    Confira os produtos